Friday, December 2, 2011

Ye Watan Tumhara Hai Guitar Tabs

Ye Watan Tumhara Hai Tum Ho pasbaan is k


e|---------------------------4---------------------7-------------|
B|------------5-------5---------7-5-7-9-7-9------9-7-5---|
g|-4-4-----------4----------------------------------------------|

Yeh Chaman Tumhara Hai Tum HO nagmah Khwan is k


e|---------------------------4---------------------7-------------|
B|------------5-------5---------7-5-7-9-7-9------9-7-5---|
g|-4-4-----------4----------------------------------------------|


ye feeza Tumhari Hai Beherobar tumharay hain

e| ---4-5-7-9-7-10-10-9-----4-5-7-9-7-10-10-9----- |

Khehkshiaon K yeh jaley, Reguzhar Tumharay Hain

e|-7-12-11-9-7-11-10------------9-7-9-7-4----------|
B|----------------------------10-10------------------7-5-----|

Rest of the song Goes like the same! :) Enjoy! I will soon Post the solo tabs also.. !




2 comments: