Wednesday, April 25, 2012

Mahiya by Jal The Band - Guitar Tabs


Intro Lead:


e|-----------------7-7---------------------------------|
B|--7-7-9-10---------10-9-7-7-5-7-5-----------|

e|-----------------7-7-------7-9-7-7-5-7-5-4-2---|
B|--7-7-9-10---------10-----------------------------|

mahiya lele dard saare dede khushiya

e|--------10-9-9-9--------7-----------------------|
B|--10----------------12------12-12-10-12----|

mahiya jee le zindagi ka har pal apana

e|--------10-9-9-9--------7-----------------------|
B|--10----------------12------12-12-10-12----|



aaaa.... 

Intro Lead 2:

e|------------------------4-5-5-4-7-9-7-9-5-7-9-7-5-7-5-4-2-----|
B|---7-5-7-5-7-5-7------------------------------------------------------|

ho jab aankh khuli anjaan tha apane andar gumnaam tha

e|---5-5-4-5-7-9-4------4-4-----4-4-5-----------------------|
B|-----------------------7--------7-----------5-5-7-2-----------|

nayi duniya ke naye log mile iss duniya mein tera pyar na tha


e|---5-5-4-5-7-9-4------4-4-----4-4-5-7-9-7-4---------------|
B|-----------------------7--------7-----------------------7----------|

mere dil gata jaa na kar tu intezaar

b|--7-9-10-10-9-10-9-10-10-12-14-14--10------------|

kabhi aayega woh yaar jiska tha intezaar

e|--9-7-7-7-6-7-4-4-7-5--------------------------------------|

tu hi gaata ja aur chhed saare taar

b|--7-9-10-10-9-10-9-10-10-12-14-14--10------------|

kabhi aayega woh yaar jiska tha intezaar

e|--9-7-7-7-6-7-4-4-7-5--------------------------------------|

mahiya lele dard saare dede khushiya

e|--------10-9-9-9--------7-----------------------|
B|--10----------------12------12-12-10-12----|

mahiya jee le zindagi ka har pal apana

e|--------10-9-9-9--------7-----------------------|
B|--10----------------12------12-12-10-12----|


dukh sukh mere ban jaate hai

e|--4-4-5-5-4-5-7-9-4-4-------4--------|
B|-------------------------------9-------------|

jab gam mere agar baatein koi

|--4------4----4-4-----------------------------|
|------7-----7--------5-5-7-5-2-------------|

har dard mujhe bhul jata hai

e|--4-4-5-5-4-5-7-9-4-4-------4--------|
B|-------------------------------9-------------|

jab yaar ho mere saath sabhi

e|--4------4----4-4--7-7-9-7-4-----------------------|
b|------7-----7-------------------------------------------|


mere har pal ki hai ek nayi dastaan

b|--7-9-10-10-9-10-9-10-10-12-14-14--10------------|

ek nayi hai subaha ek naya asmaan

e|--4------4----4-4--7-7-9-7-4-----------------------|
b|------7-----7-------------------------------------------|

thodi masti hai thoda dil deewana

e|--------------------------------------7-9---------------------
b|--7-9-10-10-9-10-9-10-10---------10-9-------------------

nahi dil hai ab mera koi veerana

e|--9-7-7-7-6-7-4-4-7-5--------------------------------------|

SOLO: 

e|--------------9-12-10-9--------------------------------------------|
b|---9-1012----------------12-9-12-10-12-10-9---------------|

e|--------------9-12-10-9-------------------------------------|
b|---9-1012----------------12-9-12-10-9-----------|

G|----9-11-9------------------------------------------------------------
D|----------------11-9-----------------------------------------------
A|-------------------------11-9----------------------------------------
E|-------------------------------------------------------------------

b|----------------------------9-----------------------------------|
G|-------------------9-11-----------------------------------------
D|-----------9-11------------------------------------------------
A|---9-11-------------------------------------------------------------
E|-------------------------------------------------------------------

b|-----------------------------10----------------------------------|
G|-------------------9-11-----------------------------------------
D|-----------9-11------------------------------------------------
A|---9-11-------------------------------------------------------------
E|-------------------------------------------------------------------


b|------------------------------12---------------------------------|
G|-------------------9-11-----------------------------------------
D|-----------9-11------------------------------------------------
A|---9-11---------------------------------------------------------
E|-------------------------------------------------------------------

b|----9-10-9-10-12-10-9----------------------------------------------------------|

G|--------------------------------11------------9--------------------------------------|
D|-------------------------------------11-12------12-11-9-------------9----------|
A|----------------------------------------------------------------11-12-------9------|
E|---------------------------------------------------------------------------------------|


Repeat the same lick after which was in the intro: 

dil dhadka nahi hai rukta nahi

e|--5-4-5-9-7-7-7-4-4-5-10-9-7----------|

anjaani raahon par chalta hai

e|---4-4-----4-4-4-----5-4--------------------------------
b|---------7-----------5-------------------------

jaana ek din hai iss duniya se

e|--5-4-5-9-7-7-7-4-4-5-10-9-7----------|

jee le pal do pal ham yeh zindagi


e|---4-4-----4-4-4----7-9-7-4----------------
b|---------7-------------------------7----------


mere dil gata jaa tu kar na intezaar

b|--7-9-10-10-9-10-9-10-10-12-14-14--10------------|


kabhi aayega woh yaar jiska tha intezaar

e|--9-7-7-7-6-7-4-4-7-5--------------------------------------|


tu hi gaata ja aur chhed saare taar

b|--7-9-10-10-9-10-9-10-10-12-14-14--10------------|

kabhi aayega woh yaar jiska tha intezaar

e|--9-7-7-7-6-7-4-4-7-5--------------------------------------|

mahiya
haa aa



1 comment: