google.com, pub-3482186525330356, DIRECT, f08c47fec0942fa0

Saturday, April 6, 2013

Be Intehaa by Atif Aslam - Guitar Tabs, Chords & Lyrics

Bay Inteha Song from Race 2 by Atif Aslam. chords are: Dmajor Bminor, Gmajor, Amajor
Strumming: D D U U D U...Tabs are given Below: 

Bey intehaan Be-inteha

e|--2-------2------------------
b|-----5-3---------------------
g|----------------------------

Be intehaan - hmmm

e|---6-7-9-2---------------------
b|---------------------------
g|----------------------------


Yun pyar kar yun pyaar kar Be intehaan

e|-0-2-0----3-5-7-0-----------------
b|---------3------------------
g|----------------------------



Dekha karun saari umar - saari umar

e|--2-------2------------------
b|-----5-3---------------------
g|----------------------------

Tere nishaan be intehaan

e|-0-2-0----3-5-7-0-----------------
b|---------3------------------
g|----------------------------

Koi kasar naa rahe, meri khabar naa rahe

e|-2-3-5-3-5-3-2-------2-3-2-----------
b|-------------------5-5---------5-3-
g|----------------------------

Choo le mujhe is kadar be intehaan

e|------2-2--------------------
b|-3-5------5-3-5-2-2-3--------------
g|----------------------------

Jab saanson me teri saansen ghooli toh

e|--2-2--3-2-2-2-2-3-2-2-3--------------
b|--------------------------------5-3-5-
g|----------------------------

Phir sulagne lage

e|------------2---------------
b|---5-3-5-----5-0----------------
g|--------------------2--------

Ehsaas mere mujhse kehne lage

e|-------------3-3-7-2-----------
b|----------3------------5-3----
g|--2-2-4------------------------


Haa baahon me teri aake jahaan do

e|--2-2--3-2-2-2-2-3-2-2-3--------------
b|--------------------------------5-3-5-
g|----------------------------

Yun simatne lage

e|------------2---------------
b|---5-3-5-----5-0----------------
g|--------------------2--------

Sailaab jaise koi behne lage

e|-------------3-3-7-2-----------
b|----------3------------5-3----
g|--2-2-4-----------------------

Khoya hoon main aagosh mey

e|--2-3-5-7-2-3-7-5-------
b|----------------------------

Tu bhi kahaan ab hosh mey

e|--2-3-5-7-2-3-7-5-------
b|----------------------------

Makhmali raat ki ho naa subah

e||--2-------3-5-7-5-3-5-3-2------------
b|-----5-3-----------------------5-----

Be intehaan, be intehaan
Yun pyaar kar be inteha

No comments:

: Enhanced by

Post a Comment