Search our Lessons

Loading...

Wednesday, June 5, 2013

Tum Hi Ho - Ashiqui 2 - Guitar Tabs

Tum Hi Ho, Ashiqui2 
Guitar Tabs: 








































Chain Bhe, Mera dard bhe
e|-7--------------7----
b|----8-10-8-10---8-10-------

Meri Ashiqui Ab tum Hi Ho
e|----------------------
b|-7-10-8-7-5-7-3-5---

Tera mera Rishta Hai Kesa
e|------12-10-10-8-7-------8-7-7----------
b|-12------------------10-8------

ik Pal Dooor Gawara Nhi
e|----------------------
b|-10-10-8-10-8-7-3-5-3-5--

Tere Leye Har Roz Hain jeete
e|------12-10-10-8-7-------8-7-7----------
b|-12------------------10-8------

Tujh Ko Diya mera Waqt sabhi
e|----------------------
b|-10-10-8-10-8-7-3-5-3-5--

Koi Lamha Mera na ho tere bina
e|-------------------8-7-----7-7-7-
b|---------7-7---7-------10---
g|-7-9-9-------9------------

har Saans Pe Naam tera
e|------12-11-12-12--------------
b|--12----------------12-10-8-10-8-7----

Kiu k Tum he ho (x2)
e|--------7-------------------
b|-8-10----8-10----------------

Zindagi Ab Tum Hi Ho
e|----------------------
b|-7-10-8-7-5-7-3-5---

Tere Leye he Jeeya mein
e|-12-12-10-12-12-14-10-6-5----

Khud ko Jo Yun De dia hai
e|-7-7-8-10-12-12-14-10-7-----

Teri Wafa ne mujhko Sanbhala
e|-8-8-7-8-7-8-------8-7---------------------
b|---------------8-8----------

sare Ghamo ko Dil se Nikalala
e|--8-8-7-8-8-10-8-7------8-7------
b|----------------------10---

Tere sath Mera Hai Naseeb Jora
e|-------------------8-7-----7-7-7-
b|---------7-7---7-------10---
g|-7-9-9-------9------------

Tujhe Paaa k Adhooora na Raha
|------12-11-12-12--------------
b|--12----------------12-10-8-10-8-7----

Kyuin K Tum He ho....

Repeat the same Tabs for the rest of the part Given Above! :)

3 comments:

  1. Hey... Can u plz provide me the tab for melody in this song which u plaay from 1.02 -1. 21...u r awesom..

    ReplyDelete

Animated Social Gadget - Blogger And Wordpress Tips