Thursday, May 26, 2011

Khuda aur Muhabbat Guitar Tabs




Karon Sajda ekk Khuda ko...

e|------7-7-7-7-7--9-10---------------------------------------|
B|---7---------------------------------------------------------|
G|-------------------------------------------------------------|

Parhon Kalma Ya mein dua doo...

e|------5-5-5-5-5--3-3-3-5-3-2-----------------------------|
B|--5--------------------------------------------------------|
G|-----------------------------------------------------------|



dono he ekk khuda aur muabbat...

e|------2-5-3-2---------------2-3-5-3-2-2-2---------------|
B|-----------------5-3-2-3-5--------------------------------|
G|----------------------------------------------------------|


Next part will come after the Season 2 Starts....! 



No comments:

: Enhanced by

Post a Comment