google.com, pub-3482186525330356, DIRECT, f08c47fec0942fa0

Tuesday, May 17, 2011

Teri Yaad by Jal The Band - Tabs



Teri yaad by Jal The Band Complete Tabs of the song.

Intro on Acoustic:

e|---7----12--12--7--7--9-7-6-7-6---------------------------------10----|
B|------------------------------------------10--8-7--------------7---8-------|
G|-----------------------------------------------------9-9-9-9----------------|
D|-------------------------------------------------------------------------------|

Intro on Bass in Background.

D|----------------------------------------------------------|
A|---2--7--7-3-3--5--3--2-2-3--------------------------5-----------|
E|-------------------------------------5--3-2-0000-2-3--------------|




Teri Yaad Aey jab Mujh ko

e|--12-10-5-7-7-7-5-8-7-3-2-------------------------------------------------|
B|-------------------------------------5-5--6-7-10-8-10-12-10-8-7-7-8-10-8------|

Intro Solo Repeats

e|---7----12--12--7--7--9-7-6-7-6-------------------------------10----|
B|----------------------------------------10--8-7---------------7---8-------|
G|---------------------------------------------------9-9-9-9----------------|
D|----------------------------------------------------------------------|

Jo sapney sajhaey Mil k...

e|--------------------------12-10-12-10-8-7-8 7--------7-------|
B|---5-7-8-10-8-10----------------------------------10-----------|
G|---------------------------------------------------------------------|
D|-----------------------------------------------------------------|

Khushi k Pal bitaey Mil k..

e|-------------------------12-10-12-10-8-7-8 7--------7---------------|
B|---5-7-8-10-8-10--------------------------------10-------------------|
G|-----------------------------------------------------------------|
D|-----------------------------------------------------------------|

Kia paya Mein ne Kia khoya...

e|--7-7-5-8-7--------------------------------|
B|----------------8-7-7-8-5-3-5--------------|

Kab Jaga Hun Mein Kab soya.!

e|--7-7-5-8-7------------8-8--13-12-10-12-10-12------|
B|-----------------8-7-7-----------------------------------|

Teri Har Baat Rolaey jab mujh ko

e|--12-10-5-7-7-7-5-8-7-3-2-----------------------------------------------------|
B|-------------------------------------5-5--6-7-10-8-10-12-10-8-7-7-8-10-8--------|

The same pattern Goes for Complete song... Enjoy!

1 comment:

  1. what are the tabs for the music which comes 0:23-0:41 in your cover... the music which is being played on black guitar

    ReplyDelete