Thursday, September 1, 2011

Dil Ki Lagi By Nazia Hassan Guitar Tabs

Intro:
B|-4-2-4-2-0---------0----0-----------------
g|-----------------3-3-----1----3-------------Repeat twice 


e|-----2-2-2-4-5-6-7-6-4-4--------0--11-9-8-6------
b|--4------------------------------2-4------------


Dil ki Lagi Kuch aur bhe Dil ko Deewana karein 



e|--0-4-5-7-5-7-5------4-5-9-7-5-7-4-3--|
B|-----------------------6-------------------------|



Dil ki Lagi Kuch aur bhe Dil ko Deewana karein 



e|--0-4-5-7-5-7-5-------4-5-9-7-5-7-4-3--|
B|-----------------------6-------------------------|




Meri Iltajaa hai, Khuda se Dua hai Do Dil juda na karein




e|---6-6-7-6-------------6--------------------------------|
B|--------------9-9-9-9-----9-7-7-7-7-7-5-7-5-4---|
G|-----------------------------------------------------------|


Dil ki Lagi Kuch aur bhe Dil ko Deewana karein 


e|--0-4-5-7-5-7-5-------4-5-9-7-5-7-4-3---|
B|-----------------------6---------------------------|

Deewaney Chup kese rahein 

e|----------------------------------------|
B|--4-5-4-4-5-4-------4-5-7---------|
G|--------------------6-----------------|

Aoo Dunya se ye kahein 

e|--------------------------------------|
B|--4-5-4-4-5-4-------4-5-7-----|
G|--------------------6---------------|

Jinhein Hum se Milna Gawara nahi hai, Hum se mila na karein

e|---6-6-7-6--------------6---------------------------------|
B|---------------9-9-9-9-----9-7-7-7-7-7-5-7-5-4----|
G|-------------------------------------------------------------|


Same pattern goes for complete song... :) Enjoy!



1 comment:

  1. kindly post the intro & the tabs in between

    ReplyDelete