Thursday, September 1, 2011

Panchi Hoon Coke Studio Jal The Band Guitar Tabs

Panchi Hoon Urney Do Urney Do

e|--7-6---------------------------------------------|
B|---------7-7-9-7-7-7-5-7-5-4----------4---|
G|------------------------------------6-4-6------|



Hawaon se Larney Do Hooo Hooo....


e|---7-7-6--------9-11-9-11-6----------------|
B|-----------7-7----------------------------------|




Hooo Hooooo Hooo......



e|--9-11-9-7------



Hmmmm Hmmm mmm ...

e|--9-11-9-7------



PART 2



Hooo Rastay Galian Chor Aya mein...!



e|--11-9-7-8-7-6-6-6-6-----7---|
B|-----------------------------9-------|



Bhooley Waday Tor Chalaaa mein ...!



e|--11-9-7-8-7-6-6-6-6----7----|
B|-----------------------------9------|



Yeh Raat Abi Dhal Jaeyyy Gi...



e|--9-9-9-11-7-6-4-9-7-------------------



Yeh Baat Abhi Badal Jaeyyy giii....!



e|-9-9-9-7-6-6-6-12-11-9-11------------------



Mein Tanha hun Rehne Do Rehne Do....



e|--7-6------------------------------------------|
B|------7-7-9-7-7-7-5-7-5-4----------4----|
G|----------------------------------6-4-6-------|



Ansoooo Behne Dooo Hooo Hooo....hoooo...



e|---7-7-6---------9-11-9-11-6----------------|
B|-------------7-7----------------------------------|



Hooo Hooooo Hooo......

e|--9-11-9-7------



Below is the Part Which comes before "Tere Ishq mein jo b Doob Gya"

Hoo hoo hoo hooo hooo...



e|---7-7-6-9-------| repeat this atleast 3 Times..Then add this afterwards ..

e|---7-7-6-9-4------|



Ho ho Ho hoooohoho ...

e|-7-7-6-9-7-7---------



NOW STARTS ...



Tere Ishq mein jo b Dooob Gya Usey Dunya ki lehron se Darna Kia .. (2 Times)



e|------------------------7-9-7-7-4-2-4-4-2-0-----------------------|
B|-0-0-4-0-4-7-7----------------------------------4-2-4-2-0-0-0-|



Usey Darna Kia Usey Darna kia



B|-4-2-4-2-0-0-0-|



Usey Darna Kia Usey Darna kia



B|-4-2-4-2-0-0-0-|



Usey Darna Kia Usey Darna kia



B|-4-2-4-2-0-0-0-|



USEY DARNA KIA!!! USEY DARNA KIA!!



e|-7-7-6--9-7-7-7-7| Repeat it fastly till end ... :)



USEY DARNA KIA!!! USEY DARNA KIA!!!!!! -END- :)



e|-7-7-6--9-7


Enjoy! ; ) 



No comments:

: Enhanced by

Post a Comment