Friday, May 18, 2012

Dekha Na Tha by Alamgir Guitar Tabs

Intro:

e|--10-10--12-10-9-9-10-9-7-7-9-7-9-------| Repeat twice

Dekha Na Tha Kabhi Hum Ne Yeh Sama

B|-6-6-4------4-6-7-6-4--------|
G|---------6-6-----------------6---|

Esa Nasha Tere Pyar Ne Diya

B|-7-7-6-4------4-6-7-4-----4--
e|--------------------------7---------

Kho Gye Sapno Mein Hum

B|-6-6-6-4-6-4-6--------



Dekha Na Tha Kabhi Hum Ne Yeh Sama

B|-6-6-4------4-6-7-6-4------------------
G|--------6-6-------------6--------------------

Esa Nasha Tere Pyar Ne Diya

B|-7-7-6-4------4-6-7-4-----4------------
e|--------------------------7---------

Kho Gye Sapno Mein Hum

B|-6-6-6-4-6-4-6------------

Dunya Chahye Humein Jo Kahe

E|-9-9-9-8-9-6-9-8-9----|

Dunya Ki Rasmo Ko Tor Chalein

e|--9-9-9-8-9-8-9-10--8-----|

Raahein Ab Jo Kahein

e|--7-7-5-7-4-5-7-5-7-------------------

Raho Ki Bahoon Ko Chor Chor Chalein

e|--7-7--5-7-8-7-8-7-5---------------

Jab Se Mila Humein Pyar Tera

E|-9-9-9-8-9-6-9-8-9----|

Yeh Raah Haseen Lagay Baar Baar Tera

e|--9-9-9-8-9-8-9-10--8-----|

Ho Jo Tujhe Dil Mein Chupaye Gey

e|--7-7-5-7-4-5-7-5-7-------------------

Dekha Na Tha Kabhi Hum Ne Yeh Sama


B|-6-6-4------4-6-7-6-4------------------
G|--------6-6-------------6--------------------


Tera Nasha Tere Pyar Ne Diya

Kho Gye Sapno Mein Hum. 




No comments:

: Enhanced by

Post a Comment